Logowanie


Zapomniałeś hasło?
Załóż Konto
Design i Grafika by
Hakkatuka.gif (716 B)

Tabulatury utworów Illusion

to co ma nadejść
vendetta
keff
nikt
nowhere
(autor: Marek Głowacz)

nóż
wojtek
(autor: Szymon Śmigasiewicz - benyk@go2.pl)

to co ma nadejść
(autor: Jacek Marczyński - Jatzek@polbox.com / jatzekm@friko.onet.pl)

Cierń
Tylko

Sugar
(autor: Paweł Józwik - Jozwik@ergopol.pl )

Kły


to co ma nadejść
D-----------------------------------------------------|----------------
A-----------------------------------------------------|----------------
F-----------------------------------------------------|----------------
C-----------------------------------------------------|----------------
G--5---6---7---7----x----7---------3---5--5^r-----3---|---3---5--------
C--5---6---7---7----x----7---5--7---------------------|---3---5--------


vendetta
D----------------------------------------------------------------------
A----------------------------------------------------------------------
F----------------------------------------------------------------------
C----------------------------------------------------------------------
G-0-0-0-3-0-0-3--3--5---0-0-0-3-0-0-0-0-0-0-0-0------------------------
C-0-0-0-3-0-0-3--3--5---0-0-0-3-0-0-0-0-0-0-0-0------------------------

D----------------------------------------------------------------------
A----------------------------------------------------------------------
F----------------------------------------------------------------------
C----------------------------------------------------------------------
G-2---0-0-1-2---0-0-1-2---0-0-1-2---3----------------------------------
C-2---0-0-1-2---0-0-1-2---0-0-1-2---3----------------------------------

D-----------------------------|---------|--------------------|---------
A-----------------------------|---------|--------------------|---------
F-----------------------------|---------|--------------------|---------
C-----------------------------|---------|--------------------|---------
G-0---9---0-4-5-6----0-3-4-5--|-0-2-3-3-|-5-4-3-2------------|-3-2-1-0-
C-0---9---0-4-5-6----0-3-4-5--|-0-2-3-3-|-5-4-3-2------------|-3-2-1-0-


keff
D----------------------|-------------|---------------------------------
A----------------------|-------------|---------------------------------
F----------------------|-------------|---------------------------------
C----------------------|-------------|---------------------------------
G-3-2-2-0-0--0-0--0----|--55557-5----|--2------12-----11-----10--------
C-3-2-2-0-0--0-0--0----|----------7--|--2------12-----11-----10--------

D----------------------------------------------------------------------
A----------------------------------------------------------------------
F----------------------------------------------------------------------
C----------------------------------------------------------------------
G-0-0--------------2-3----0-0-----------3-5----------------------------
C-0-0---0-0-0-0-0--2-3----0-0---0-0-0-0-3-5----------------------------


nikt
D--------------------------|------|------------------------------------
A--------------------------|------|------------------------------------
F--------------------------|------|------------------------------------
C--------------------------|------|------------------------------------
G----3-5-------------------|----3-|------------------------------------
C--0-----0-5-6-0-3-5-0-2-3-|-0-3--|-0-0-0------------------------------

D----------------------------------------------------------------------
A----------------------------------------------------------------------
F----------------------------------------------------------------------
C----------------------------------------------------------------------
G-------------------5--------------------------------------------------
C--0-----0-h-3-p-0---------0--3--5--6--0--3----------------------------


nowhere
D----------------------------------------------------|-----------------
A----------------------------------------------------|-----------------
F----------------------------------------------------|-----------------
C---------------------------------3-h-5-p-3----------|-----------------
G--------------------------------------------p-5-p-3-|--3-----2-1------
C--0---0-h-3-h-5----0--0-h-3-h-5---------------------|--3-----2-1------

D----------------------------------------------------------------------
A----------------------------------------------------------------------
F----------------------------------------------------------------------
C----------------------------------------------------------------------
G--0--0-0---3--0---3--0---5--6-------0--0-0---3--0---3--0----5-8-------
C--0--0-0---3--0---3--0---5--6-------0--0-0---3--0---3--0----5-8-------


nóż (strój E o ton w dół : DADGHE)
Main riff
E---------------------------------------------------------------------
B---------------------------------------------------------------------
G---------------------------------------------------------------------
D---------------------------------------------------------------------
A--0--0--0------0--0--------0--0-------3-3----------------------------
D--0--0--0-000--0--0---000--0--0--000--3-3----------------------------

Bicie trzeba znaleźć samemu
Chorus
E------------------|---------------------|-----------------------0----
B------------------|---------------------|-----------------------0----
G------------------|---------------------|-----------------------10---
D--8-7-0--3-0--0---|-----5-3-0--3-0--0---|---8-7-0--3-0--0------------
A--8-7-0--3-0--0---|-----5-3-0--3-0--0---|---8-7-0--3-0--0------------
D--8-7-0--3-0--0---|-----5-3-0--3-0--0---|---8-7-0--3-0--0------------


E------------------|---------------------|------------------|---------
B------------------|---------------------|------------------|---------
G------------------|---------------------|------------------|---------
D--8-7-0--3-0--0---|-----5-3-0--3-0--0---|---8-7-0--3-0--0--|-2-1-----
A--8-7-0--3-0--0---|-----5-3-0--3-0--0---|---8-7-0--3-0--0--|-2-1-----
D--8-7-0--3-0--0---|-----5-3-0--3-0--0---|---8-7-0--3-0--0--|-2-1-----


nóż
rozpisał: Szymon śmigasiewicz (benyk@go2.pl)

legenda:
3/5 - slide z 3 na 5
5\3 - slide z 5 na 3
h - hammer on
p - pull off
3b5 - podcignięcie z 3 do 5

wstęp:
E---------------------------------------------x--
H---------------------------------------------5--
G---------------------------------------------5--
D---------------------------------------------5--
A--0--0--0---------0--0----------0--0---------3--
D--0--0--0--0-0-0--0--0---0-0-0--0--0--0-0-0--x--


zwrotka:
E-----------------------------------------------------
H-----------------------------------------------------
G-----------------------------------------------------
D-----------------------------------------------------
A-0--0--0-------------0-------------0------3--3-2/3-3-
D-0--0--0--0-0-0-0-0--0--0-0-0-0-0--0--0-0-3--3-2/3-3-

E---------------------------
H---------------------------
G---------------------------
D---------------------------
A--8-7-0-3-0-0--5-3-0-3-0-0-
D--8-7-0-3-0-0--5-3-0-3-0-0-
to 2 razy potem:

E--0---
H--0---
G--10--
D------
A------
D------

druga zwrotka kończy się:
E---------------
H---------------
G---------------
D---------------
A--3--3--2h3--1-
D--3--3--2h3--1-

potem zmiana rytmu i:
E-------x----------x----5----
H-------3----------5----6----
G-------2----------5----7----
D-------0----------5----5----
A-------5----------3----5----
D-0-----x----0-----x----x----


wojtek
rozpisal: Szymon Śmigasiewicz (benyk@go2.pl)

legenda:
3/5 - slide z 3 na 5
5\3 - slide z 5 na 3
h - hammer on
p - pull off
3b5 - podciągnięcie z 3 na 5


E-1-1-1-1----1-1-1--1----------
H-2-3-2-3----3-3-3--3----------
G-1-1-1-1----0-1-2--1----------
D-0-0-0-0----0-0-0--0----------
A------------------------------
D------------------------------

to jest grane parę razy, potem:

E-1-1-1-1-----------------------------------1-1-1-
H-2-3-2-3-----------------------------------2-3-2-
G-1-1-1-1-----------------------------------1-1-1-
D-0-0-0-0-----------------------------------0-0-0-
A---------3h5-0--0--0--3\2-3/5-5h6-0--0--0--------
D---------3h5-0--0--0--3\2-3/5-5h6-0--0--0--------

E--------------------------------------------------------------
H--------------------------------------------------------------
G--------------------------------------------------------------
D--------------------------------------------------------------
A-3h5-0--0--0--3\2-3/5-7h8-0--0--0--3h5----------3h5-----------
D-3h5-0--0--0--3\2-3/5-7h8-0--0--0------5h7-3--------5h7-3b5---

zwrotka:
E---------------------------
H---------------------------
G---------------------------
D---------------------------
A-3h5----------3-4-5--------
D-----5h7-3--0--------0-0---


to co ma nadejść
E------------------------------------------------------
H------------------------------------------------------
G------------------------------------------------------
D------------------------------------------------------
A--0---5---7---7--x---7-0---3--5--5b---3---------------
D--0---5---7---7--x---7-0------------------------------

5b - podciagniecie o polton i z powrotem.
refren riff:
E------------------------------------------------------
H------------------------------------------------------
G------------------------------------------------------
D--3~--------5~----------------------------------------
A--3~--------5~----------------------------------------
D--3~--------5~----------------------------------------


cierń
Strojenie - EADGHE
Riff zwrotki:
E------------0--------------------------------------0-------------------
H---------------3-----3-----------3--------3-----------3----------------
G---------2--------------0-----------2-----2-----2--------2-------------
D------0-----------2--------2-----------0--0--0-------------------------
A------------------3-----------2-----------1----------------------------
E-----------------------------------------------------------------------

Riff przejscia miedzy zwrotkami:
E-----------------------------------------
H-----------------------------------------
G-----------------------------------------
D---3--3--3--3--3--3--3--5--5--5--5--5----
A---1--1--1--1--3--3--3--3--3--3--3--5----
E---1--1--1--1--1--1--1--3--3--3--3--3----

Riff refrenu:
E-------------------------------
H-------------------------------
G-------------------------------
D--7--7--7--7--5--5--3--3-------
A--5--5--4--4--3--3--1--1-------
E--5--5--5--5--3--3--1--1-------

tylko
Strojenie - Eb Ab Db Gb Hb Eb - pól tonu niżej, Jerry gra
z chorusem/flangerem
Riff zwrotki:
Eb--------------------------------------
Hb-10--------7--------5--------3--------
Gb------0--------0--------0--------0----
Db----0---0----0---0----0---0----0---0--
Ab-10--------7--------5--------3--------
Eb--------------------------------------

Riff refrenu:
Eb------------------------------------------
Hb-3-3--------3---------3-3--------3--------
Gb-------0--------0-----------0--------0----
Db-----0---0----0---0-------0---0----0---0--
Ab-3-2--------3---------3-2--------3--------
Eb------------------------------------------

Eb------------------------------------
Hb-3-3--------3---------3-3--------3--
Gb-------0--------0-----------0-------
Db-----0---0----0---0-------0---0-----
Ab-3-2--------3---------3-2--------3--
Eb------------------------------------

riff do sugar
E-------------------------------------------------------
H-------------------------------------------------------
G-------------------------------------------------------
D-------------------------------------------------------
A-------------------10--12-------------------10--12-----
E---0--10--12--0-----------0--10--12--0-----------------

E-----------------------------------------------------------------
H-----------------------------------------------------------------
G-----------------------------------------------------------------
D-----------------------------------------------------------------
A------------------------------9--10----------------5--7-----5----
E-0--10--12--0--9--10--0-----------0--5--7--0------------0--------

kły
E --------------------------------
H --------------------------------
G --------------------------------
D --------------------------------
A 0--0--0--0--0-3-0--0--0--0--0---
D 0--0--0--0--0-3-0--0--0--0--0---

E --------------------------------
H --------------------------------
G --------------------------------
D --------------------------------
A 0--3--5--6--5-3-0--2--3--5--3-2-
D 0--3--5--6--5-3-0--2--3--5--3-2-

Showing comments 1 to 4 of 18 | Next | Last

Dodaj komentarz

  • Wymagane pola są oznaczone *.

Aktualności

27.09.2011.
Illusion POWRACA!!!
Nikt by się togo nie spodziewał, ale jednak stało się :)
31.10.2010.
Wywiad
Wywiad z Lipą na Metal.pl
01.02.2010.
Zdjęcia
Nowy dział
18.01.2010.
Oxy.Gen - Za darmo
Druga płyta zespołu Oxy.Gen dostępna za darmo do ściągnięcia.